Akordy - "Na krawędzi"

wersja z płyty "Fin de siecle"

Intro:

   --0---1------------------|
   ----3--------------------|
   -------------------------|     x4
   -0-----------------------|
   -------------------------|
   -------------------------|

      d                        d0
cz.A ---------1---------------|---------0---------------|
     -----3-------3-----------|-----3-------3-----------|
     ---2---2---2---2---------|---2---2---2---2---------|
     -0-----------------------|-0-----------------------|
     -------------------------|-------------------------|
     -------------------------|-------------------------|

     B                         B
     ---------1---------------|---------1---------------|
     -----3-------3-----------|-----3-------3-----------|
     ---3---3---3---3---------|---3---3---3---3---------|
     -------------------------|-------------------------|
     -1-----------------------|-1-----------------------|
     -------------------------|-------------------------| x2


Refren:

   d B F C |x2


     d                        d0
cz.A ---------1---------------|---------0---------------|
     -----3-------3-----------|-----3-------3-----------|
     ---2---2---2---2---------|---2---2---2---2---------|
     -0-----------------------|-0-----------------------|
     -------------------------|-------------------------|
     -------------------------|-------------------------|

     B                         B
     ---------1---------------|---------1---------------|
     -----3-------3-----------|-----3-------3-----------|
     ---3---3---3---3---------|---3---3---3---3---------|
     -------------------------|-------------------------|
     -1-----------------------|-1-----------------------|
     -------------------------|-------------------------| x2


+wokal:

     d                        d0
cz.A ---------1---------------|---------0---------------|
     -----3-------3-----------|-----3-------3-----------|
     ---2---2---2---2---------|---2---2---2---2---------|
     -0-----------------------|-0-----------------------|
     -------------------------|-------------------------|
     -------------------------|-------------------------|

     B                         B
     ---------1---------------|---------1---------------|
     -----3-------3-----------|-----3-------3-----------|
     ---3---3---3---3---------|---3---3---3---3---------|
     -------------------------|-------------------------|
     -1-----------------------|-1-----------------------|
     -------------------------|-------------------------| x4

Refren:

   d d G B
   d B F C |x2


     d                        d0
cz.A ---------1---------------|---------0---------------|
     -----3-------3-----------|-----3-------3-----------|
     ---2---2---2---2---------|---2---2---2---2---------|
     -0-----------------------|-0-----------------------|
     -------------------------|-------------------------|
     -------------------------|-------------------------|

     B                         B
     ---------1---------------|---------1---------------|
     -----3-------3-----------|-----3-------3-----------|
     ---3---3---3---3---------|---3---3---3---3---------|
     -------------------------|-------------------------|
     -1-----------------------|-1-----------------------|
     -------------------------|-------------------------| x2

+wokal:

     d                        d0
cz.A ---------1---------------|---------0---------------|
     -----3-------3-----------|-----3-------3-----------|
     ---2---2---2---2---------|---2---2---2---2---------|
     -0-----------------------|-0-----------------------|
     -------------------------|-------------------------|
     -------------------------|-------------------------|

 B                         B
     ---------1---------------|---------1---------------|
     -----3-------3-----------|-----3-------3-----------|
     ---3---3---3---3---------|---3---3---3---3---------|
     -------------------------|-------------------------|
     -1-----------------------|-1-----------------------|
     -------------------------|-------------------------| x4

Refren:

   d d G B |x2
   d B F C |x2
_____

   A d d C |x4
_____

Refren:

   d B F C |x2
_____

   d d G B
   d d G B

       d                         d0
     ----------0---------------|-----0--------------------||
     ------3-------3-----------|-----3--------------------||
     ----2---2---2---2---------|-----2--------------------||
     -0------------------------|-----0--------------------||
     --------------------------|-----0--------------------||
     --------------------------|--------------------------||